• Time, it needs time
    To win back your love again
    I will be there, I will be there ...
    Love, only love
    Can bring back your love someday
    I will be there, I will be there ...

    Fight, baby I fight
    To win back your love again
    I will be there, I will be there ...
    Love, only love
    Can break down the walls someday
    I will be there, I will be there.

    If we'd go again all the way from the start
    I would try to change things that killed our love
    Your pride has built the wall so strong that I can't get through!
    Is there really no chance to start once again?
    I'm loving you

    Try, baby try
    To trust in my love again
    I will be there, I will be there ...
    Love our love
    Just shouldn't be thrown away
    I will be there, I will be there ...

    If we'd go again all the way from the start
    I would try to change things that killed our love
    Your pride has built the wall so strong that I can't get through!
    Is there really no chance to start once again?

    If we'd go again all the way from the start
    I would try to change things that killed our love
    Yes I hurt your pride and I know what you been through
    You should give me a chance, this can't be the end

    I'm still loving you ...
    I'm still loving you ...
    I'm still loving you ...
    I'm still loving you ...

    Still Loving You Baby

    12 commentaires
  • Prenez un homme mortel

    Et mettez-le aux commandes

    Regardez-le devenir un dieu

    Regardez les têtes des gens rouler

    Rouler...

     

     

    Tout comme le Joueur de Flûte

    Conduisit les rats à travers les rues

    Nous dansons comme des marionettes

    Nous balançant au rythme de la Symphonie...

    De Destruction

     

    Agissant comme un robot,

    Son cerveau de métal rouille

    Vous essayez de lui prendre le pouls

    Avant que sa tête n'explose

    N'explose...

     

     

     

    La terre commence à gronder

    Les puissances du monde s'effondrent

    Un conflit pour les cieux

    Un homme pacifique marche la tête haute

    La tête haute...


    1 commentaire
  • pas de difficulté majeur au niveau rythmique, c'est même plutot deux doigts dans le nez.  Niveau solo, c'est une autre paire de manche (la version de nightwish est pire mais je la recommande à l'écoute)

    e|---------|
    B|---------|
    G|---------|
    D|---------|
    A|---------|
    E|--1-3-1--|
        * * *



    Riff 1
    e|-----------------------------------|
    B|-----------------------------------|
    G|-----------------------------------|
    D|-----------------------------------|
    A|-3-2--2----3-2--2----------3-2--2--|
    E|-1-0--0----1-0--0----1-3-1-1-0--0--|
                           * * *
      "You take a mortal man..."

    Final time:
    e|-----------------------------------------|
    B|-----------------------------------------|
    G|-----------------------------------------|
    D|-----------------------------------------|
    A|-3-2--2----3-2--2----------3-2--2--------|
    E|-1-0--0----1-0--0----1-3-1-1-0--0----0-0-|
                           * * *           * *


    Riff 2
    Guitar 1
    e|-------------------|
    B|-------------------|
    G|-------------------|
    D|-7---6---5---5h7-5-|
    A|-7---6---5---------|
    E|---0---0---0-------|
         *   *   *
      "...a roll..."

    Guitar 2 (comes in the 2nd time)
                        x2
    e|-------------------|
    B|-------------------|
    G|-------------4h5-5-|
    D|-7---6---5---------|
    A|-7---6---5---------|
    E|---0---0---0-------|
         *   *   *
                        x3
    e|-------------------|
    B|-------------5h6-5-|
    G|-------------------|
    D|-7---6---5---------|
    A|-7---6---5---------|
    E|---0---0---0-------|
         *   *   *

    Last time
    e|---------------------------------|
    B|---------------------------------|
    G|---------------------------------|
    D|-7---6---5\----------------------|
    A|-7---6---5\------5~--------------|
    E|---0---0-----0-0-----6-5-4-3-2-1-|
         *   *     * *     * * * * * *


    Riff 3
    e|--------------------------------|
    B|--------------------------------|
    G|--------------------------------|
    D|----9-----8-----7-----6~--------|
    A|------7-----7-----5-------7-----|
    E|-0------0-----0-----0-------7~\-|
       "Just like the..."
    e|--------------------------------|
    B|--------------------------------|
    G|--------------------------------|
    D|---5-----4-----7------5-4-------|
    A|-----3-----3-----5--------5-----|
    E|-0-----0-----0-----0--------7~~-|
      "...led rats..."
    e|--------------------------------|
    B|--------------------------------|
    G|--------------------------------|
    D|----9-----8-----7-----6~--------|
    A|------7-----7-----5-------7-----|
    E|-0------0-----0-----0-------7~\-|
      "We dance like..."
    e|----------------------------|
    B|----------------------------|
    G|------------------------7---|
    D|---5-----4------7-7-7-7-7---|
    A|-----3-----3----5-5-5-5-5---|
    E|-0-----0-----0--------------|
                      * * * *
      "...swaying to the..."


    Play Riff 1   "Acting like a robot..."
    Play Riff 2   "explodes....explodes..."
    Play Riff 3   "Just like the..."

    Riff 3a

    Guitar 1
    e|--------------------------------|
    B|--------------------------------|
    G|--------------------------------|
    D|----9-----8-----7-----6~--------| ----|
    A|------7-----7-----5-------7-----|     |
    E|-0------0-----0-----0-------7~\-|     |
       "Just like the..."                   |--> Play 2x
    e|--------------------------------|     |
    B|--------------------------------|     |
    G|--------------------------------| ----|
    D|---5-----4-----7------5-4-------|
    A|-----3-----3-----5--------5-----|
    E|-0-----0-----0-----0--------7~~-|
      "...led rats...."

    Last time:
    e|---------------------------|
    B|---------------------------|
    G|---------------------------|
    D|---5-----4------7-7-7-7-7--|
    A|-----3-----3----5-5-5-5-5--|
    E|-0-----0-----0-------------|
                      * * * *
      "...swaying to the..."


    Guitar 2
    e|---------------------------------|
    B|---------------------------------|
    G|---------------------------------| ----|
    D|---12-----11-----10-----9~-------|     |
    A|-----10-----10-----10-------11---|     |
    E|-0-----12-----12-----12-------12-|     |
       "Just like the..."                    |--> Play 2x
    e|--------------------------------|      |
    B|--------------------------------|      |
    G|--------------------------------|      |
    D|---9-----7-----12-----9-7-------| -----|
    A|-----7-----7------9-------9-----|
    E|-0-----0-----0------0-------10~-|
      "...led rats..."

    Last time:
    e|---------------------------|
    B|---------------------------|
    G|---------------------------|
    D|---9-----7------7-7-7-7-7--|
    A|-----7-----7----5-5-5-5-5--|
    E|-0-----0-----0-------------|
                      * * * *
      "...swaying to the..."



    Riff 4 (Solo Rhythm)
    e|----------------|
    B|----------------|
    G|----------------|
    D|-----7---6---5--|
    A|-----7---6---5--|
    E|-0-0---0---0----|
       * *   *   *

    Lead into next section:
    e|---------|
    B|---------|
    G|---------|
    D|---------|
    A|---------|
    E|--1-3-1--|
        * * *


    Solo (Friedman)
    e|----------------------------------------------|
    B|-----------------------------------5----------|
    G|-/9--9~-9~-9~--/9-9~--9\7---6b7~~--7b9\-3b4~~-|
    D|--------------------------9-------------------|
    A|----------------------------------------------|
    E|----------------------------------------------|

    e|--------------------------------|
    B|--------------------------------|
    G|-0-2-0-2b3r2~-2b3r2-0-----------|
    D|----------------------2-0-0-2~~-|
    A|--------------------------------|
    E|--------------------------------|
       * * *
    e|---------------------8-12----8-12/14p12--12-|
    B|------------------10------10-----------13---|
    G|-----9-11----9-11---------------------------|
    D|-/10------10--------------------------------|
    A|--------------------------------------------|
    E|--------------------------------------------|

    e|-14-17p14p12----/20-17h20p17------------|
    B|-------------13--------------19-17------|
    G|-----------------------------------17~~-|
    D|----------------------------------------|
    A|----------------------------------------|
    E|----------------------------------------|

    e|--------------------------------------------------|
    B|-/12p10----10-12p10----10-15p10----15p10----14p10-|
    G|--------12----------12----------12-------12-------|
    D|--------------------------------------------------|
    A|--------------------------------------------------|
    E|--------------------------------------------------|

    e|-12p10----10-12p10----10-15p10----15p10----14p10-|
    B|-------12----------12----------12-------12-------|
    G|-------------------------------------------------|
    D|-------------------------------------------------|
    A|-------------------------------------------------|
    E|-------------------------------------------------|

    e|-15p10----10-19p15----15-22p19----19-|
    B|-------12----------15----------20----|
    G|-------------------------------------|
    D|-------------------------------------|
    A|-------------------------------------|
    E|-------------------------------------|

    e|-----------------------------------------|
    B|-20p15-----------------------------------|
    G|------16---19p16-----------------14b16~~-|
    D|--------17------17---14p12\11h12---------|
    A|------------------17---------------------|
    E|-----------------------------------------|

    e|-----------------------------------------------12-|
    B|-----------------12-13p12----------------12h13----|
    G|-/15p12----12-15----------15p12----12-15----------|
    D|--------14----------------------14----------------|
    A|--------------------------------------------------|
    E|--------------------------------------------------|

    e|--------------------------12---------------------------|
    B|-13p12-----------------12----15p12---------------------|
    G|------15p12---12-14h15-------------15p14p12----13b14~~-|
    D|------------14------------------------------14---------|
    A|-------------------------------------------------------|
    E|-------------------------------------------------------|

    e|----12-------------12-------------12-------------|
    B|-12----15p12-15b17----15p12----------15p12-------|
    G|----------------------------14b16----------14b16-|
    D|-------------------------------------------------|
    A|-------------------------------------------------|
    E|-------------------------------------------------|

    e|-12-------------12-------------12---------|
    B|----15p12-12-------15p12-12--------15---\-|
    G|----------14b16----------14b16-----14b16\-|
    D|------------------------------------------|
    A|------------------------------------------|
    E|------------------------------------------|

    End solo

    Play Riff 1   "The Earth starts..."
    Play Riff 2   "tall...stands tall..."
    Play Riff 3   "Just like the..."
    Play Riff 3a  "Just like the..."

    Ending:
    e|----------|
    B|----------|
    G|----------|
    D|----------|
    A|--3-2--2--|
    E|--1-0--0--|
      "...destruction."


    3 commentaires
  • Black And Silver


    by Unknown

    I am amused
    You seem to love me
    But be reserved
    Before you huff me

    I'm used to winners
    I need the fame
    And if you touched me
    You'd be my shame

    Your childish dreams are all in vain
    To me your kind is all the same

    A starlit sky
    Of black and silver is my core
    My last goodbye
    Makes you want me even more
    For silver is my fame
    Black is my name

    I am a queen
    And if you creep
    I'll push my blade
    Still-water-deep

    I am a dream
    A fairy-tale
    Your endless quest
    Your holy grail

    Thanks so much for your confusion
    I will be your lost illusion

    Deep inside
    The silver shines as black as can be
    My disguise
    The wolf among the sheep, you want me
    To me your kind is all the same
    To me your kind is all the same

    letras acima

    votre commentaire
  • groupe bien péchu que j'ai decouvert il y a peu de temps, encore du metal feminin (mon kiff ca).

    J'ai pas encore fait de recherche sur les origines du groupe mais je vais m'y mettre et essayer de voire si je sais pas trouver d'autres albums.

    En attendant, je me passe en boucle l'album Indy.  Si je dois vraiment en retirer une chanson, ce serait BLACK AND SILVER.

    Bon je parts aux infos pour en savoir plus


    1 commentaire


    Suivre le flux RSS des articles de cette rubrique
    Suivre le flux RSS des commentaires de cette rubrique